পৃষ্ঠাসমূহ

বৃহস্পতিবার, ১৩ ডিসেম্বর, ২০১২

Amar Sonar Bangla(Bangladesh Anthem)

 Tabs:
amar sonar bangla ami tomay valobashi

/ means 10th fret

--3-5-2-3-2-----------------------232---------------2--------
------------5-3-53------------3-35-----5-33-5---3-5---5-3----
--------------------5-4--5-4------------------5--------------

chirodin tomar akash tomar batash amar prane

---------3---55-3-5-578753-5-57875-----------------
--333--5-------------------------------------------
---------------------------------------------------

o ma amar prane bajae bashi sonar bangla
--//8/87---7-----------------------------------------
---------/---8/87-8-78/-787-5-3-53-------------------
-----------------------------------54----------------

Chords:
E B E B
Amar sonar bangla ami tomai valobashi
B E F# E B F# B
Chirodin tomar Aakash , Tomar batash, amar Prane
B E B E
O ma amar PraneBajai bashi
E B E B
Sonar bangla , Ami tomai Valobashi
E G#m E B G#m
O ma Fagune tor amer boner ghrane pagol kore e e e e
B
Mori hay,
B G#m
Hai re O ma Oghrane tor Bhora khete ki dekhechi

Ami ki dekhechi Modhur Hashi Sonar bangla

Ami tomai valobashi i i i i i i

Ki shova ki chaiya go, ki sneho , ki mayago

ki Aachol Bicchaicho Boter mule, Nodir Kule Kule e e e e

Ma, tor Mukher bani amar kane lage Sudhar moto o o o

Mori hay , Hay re O Ma

tor bodonkhani molin hole, o ma ami noyon jole vashi,

Sonar bangla , ami tomai valob ashi.........................

click here.